  0
SECTION
  2
HEADER
  9
$ACADVER
  1
AC1015
  9
$ACADMAINTVER
 70
    20
  9
$DWGCODEPAGE
  3
ANSI_1252
  9
$INSBASE
 10
0.0
 20
0.0
 30
0.0
  9
$EXTMIN
 10
87.70224042337593
 20
804.7110591695913
 30
0.0
  9
$EXTMAX
 10
89.772771032515
 20
805.1260591695912
 30
0.0
  9
$LIMMIN
 10
0.0
 20
0.0
  9
$LIMMAX
 10
420.0
 20
297.0
  9
$ORTHOMODE
 70
     1
  9
$REGENMODE
 70
     1
  9
$FILLMODE
 70
     1
  9
$QTEXTMODE
 70
     0
  9
$MIRRTEXT
 70
     1
  9
$LTSCALE
 40
1.0
  9
$ATTMODE
 70
     1
  9
$TEXTSIZE
 40
2.5
  9
$TRACEWID
 40
1.0
  9
$TEXTSTYLE
  7
SANINDUSA
  9
$CLAYER
  8
0
  9
$CELTYPE
  6
ByLayer
  9
$CECOLOR
 62
   256
  9
$CELTSCALE
 40
1.0
  9
$DISPSILH
 70
     0
  9
$DIMSCALE
 40
1.0
  9
$DIMASZ
 40
2.0
  9
$DIMEXO
 40
1.0
  9
$DIMDLI
 40
1.0
  9
$DIMRND
 40
0.0
  9
$DIMDLE
 40
0.0
  9
$DIMEXE
 40
1.0
  9
$DIMTP
 40
0.0
  9
$DIMTM
 40
0.0
  9
$DIMTXT
 40
2.0
  9
$DIMCEN
 40
0.0
  9
$DIMTSZ
 40
0.0
  9
$DIMTOL
 70
     0
  9
$DIMLIM
 70
     0
  9
$DIMTIH
 70
     0
  9
$DIMTOH
 70
     0
  9
$DIMSE1
 70
     0
  9
$DIMSE2
 70
     0
  9
$DIMTAD
 70
     1
  9
$DIMZIN
 70
     8
  9
$DIMBLK
  1

  9
$DIMASO
 70
     1
  9
$DIMSHO
 70
     1
  9
$DIMPOST
  1

  9
$DIMAPOST
  1

  9
$DIMALT
 70
     0
  9
$DIMALTD
 70
     3
  9
$DIMALTF
 40
0.03937007874016
  9
$DIMLFAC
 40
1.0
  9
$DIMTOFL
 70
     1
  9
$DIMTVP
 40
0.0
  9
$DIMTIX
 70
     0
  9
$DIMSOXD
 70
     0
  9
$DIMSAH
 70
     0
  9
$DIMBLK1
  1

  9
$DIMBLK2
  1

  9
$DIMSTYLE
  2
SANINDUSA
  9
$DIMCLRD
 70
   256
  9
$DIMCLRE
 70
   256
  9
$DIMCLRT
 70
   256
  9
$DIMTFAC
 40
1.0
  9
$DIMGAP
 40
1.0
  9
$DIMJUST
 70
     0
  9
$DIMSD1
 70
     0
  9
$DIMSD2
 70
     0
  9
$DIMTOLJ
 70
     0
  9
$DIMTZIN
 70
     8
  9
$DIMALTZ
 70
     0
  9
$DIMALTTZ
 70
     0
  9
$DIMUPT
 70
     0
  9
$DIMDEC
 70
     1
  9
$DIMTDEC
 70
     1
  9
$DIMALTU
 70
     2
  9
$DIMALTTD
 70
     3
  9
$DIMTXSTY
  7
SANINDUSA
  9
$DIMAUNIT
 70
     0
  9
$DIMADEC
 70
     1
  9
$DIMALTRND
 40
0.0
  9
$DIMAZIN
 70
     0
  9
$DIMDSEP
 70
    44
  9
$DIMATFIT
 70
     3
  9
$DIMFRAC
 70
     0
  9
$DIMLDRBLK
  1

  9
$DIMLUNIT
 70
     2
  9
$DIMLWD
 70
    -1
  9
$DIMLWE
 70
    -1
  9
$DIMTMOVE
 70
     0
  9
$LUNITS
 70
     2
  9
$LUPREC
 70
     4
  9
$SKETCHINC
 40
1.0
  9
$FILLETRAD
 40
3.0
  9
$AUNITS
 70
     0
  9
$AUPREC
 70
     0
  9
$MENU
  1
.
  9
$ELEVATION
 40
0.0
  9
$PELEVATION
 40
0.0
  9
$THICKNESS
 40
0.0
  9
$LIMCHECK
 70
     0
  9
$CHAMFERA
 40
10.0
  9
$CHAMFERB
 40
10.0
  9
$CHAMFERC
 40
20.0
  9
$CHAMFERD
 40
0.0
  9
$SKPOLY
 70
     0
  9
$TDCREATE
 40
2453501.751338785
  9
$TDUCREATE
 40
2453501.709672118
  9
$TDUPDATE
 40
2453977.582049873
  9
$TDUUPDATE
 40
2453977.540383206
  9
$TDINDWG
 40
0.0018455324
  9
$TDUSRTIMER
 40
0.0018455324
  9
$USRTIMER
 70
     1
  9
$ANGBASE
 50
0.0
  9
$ANGDIR
 70
     0
  9
$PDMODE
 70
     0
  9
$PDSIZE
 40
0.0
  9
$PLINEWID
 40
0.0
  9
$SPLFRAME
 70
     0
  9
$SPLINETYPE
 70
     6
  9
$SPLINESEGS
 70
     8
  9
$HANDSEED
  5
F6F
  9
$SURFTAB1
 70
     6
  9
$SURFTAB2
 70
     6
  9
$SURFTYPE
 70
     6
  9
$SURFU
 70
     6
  9
$SURFV
 70
     6
  9
$UCSBASE
  2

  9
$UCSNAME
  2

  9
$UCSORG
 10
0.0
 20
0.0
 30
0.0
  9
$UCSXDIR
 10
1.0
 20
0.0
 30
0.0
  9
$UCSYDIR
 10
0.0
 20
1.0
 30
0.0
  9
$UCSORTHOREF
  2

  9
$UCSORTHOVIEW
 70
     0
  9
$UCSORGTOP
 10
0.0
 20
0.0
 30
0.0
  9
$UCSORGBOTTOM
 10
0.0
 20
0.0
 30
0.0
  9
$UCSORGLEFT
 10
0.0
 20
0.0
 30
0.0
  9
$UCSORGRIGHT
 10
0.0
 20
0.0
 30
0.0
  9
$UCSORGFRONT
 10
0.0
 20
0.0
 30
0.0
  9
$UCSORGBACK
 10
0.0
 20
0.0
 30
0.0
  9
$PUCSBASE
  2

  9
$PUCSNAME
  2

  9
$PUCSORG
 10
0.0
 20
0.0
 30
0.0
  9
$PUCSXDIR
 10
1.0
 20
0.0
 30
0.0
  9
$PUCSYDIR
 10
0.0
 20
1.0
 30
0.0
  9
$PUCSORTHOREF
  2

  9
$PUCSORTHOVIEW
 70
     0
  9
$PUCSORGTOP
 10
0.0
 20
0.0
 30
0.0
  9
$PUCSORGBOTTOM
 10
0.0
 20
0.0
 30
0.0
  9
$PUCSORGLEFT
 10
0.0
 20
0.0
 30
0.0
  9
$PUCSORGRIGHT
 10
0.0
 20
0.0
 30
0.0
  9
$PUCSORGFRONT
 10
0.0
 20
0.0
 30
0.0
  9
$PUCSORGBACK
 10
0.0
 20
0.0
 30
0.0
  9
$USERI1
 70
     0
  9
$USERI2
 70
     0
  9
$USERI3
 70
     0
  9
$USERI4
 70
     0
  9
$USERI5
 70
     0
  9
$USERR1
 40
0.0
  9
$USERR2
 40
0.0
  9
$USERR3
 40
0.0
  9
$USERR4
 40
0.0
  9
$USERR5
 40
0.0
  9
$WORLDVIEW
 70
     1
  9
$SHADEDGE
 70
     3
  9
$SHADEDIF
 70
    70
  9
$TILEMODE
 70
     1
  9
$MAXACTVP
 70
    64
  9
$PINSBASE
 10
0.0
 20
0.0
 30
0.0
  9
$PLIMCHECK
 70
     0
  9
$PEXTMIN
 10
1.000000000000000E+20
 20
1.000000000000000E+20
 30
1.000000000000000E+20
  9
$PEXTMAX
 10
-1.000000000000000E+20
 20
-1.000000000000000E+20
 30
-1.000000000000000E+20
  9
$PLIMMIN
 10
0.0
 20
0.0
  9
$PLIMMAX
 10
420.0
 20
297.0
  9
$UNITMODE
 70
     0
  9
$VISRETAIN
 70
     1
  9
$PLINEGEN
 70
     0
  9
$PSLTSCALE
 70
     1
  9
$TREEDEPTH
 70
  3020
  9
$CMLSTYLE
  2
Standard
  9
$CMLJUST
 70
     0
  9
$CMLSCALE
 40
20.0
  9
$PROXYGRAPHICS
 70
     1
  9
$MEASUREMENT
 70
     1
  9
$CELWEIGHT
370
    -1
  9
$ENDCAPS
280
     0
  9
$JOINSTYLE
280
     0
  9
$LWDISPLAY
290
     0
  9
$INSUNITS
 70
     6
  9
$HYPERLINKBASE
  1

  9
$STYLESHEET
  1
monochrome.ctb
  9
$XEDIT
290
     1
  9
$CEPSNTYPE
380
     0
  9
$PSTYLEMODE
290
     1
  9
$FINGERPRINTGUID
  2
{B98A73AA-52AA-4C10-B469-C0E7150AC31F}
  9
$VERSIONGUID
  2
{197D0C10-D07D-4065-91DE-9396E4CA881A}
  9
$EXTNAMES
290
     1
  9
$PSVPSCALE
 40
0.0
  9
$OLESTARTUP
290
     0
  0
ENDSEC
  0
SECTION
  2
CLASSES
  0
CLASS
  1
ACDBDICTIONARYWDFLT
  2
AcDbDictionaryWithDefault
  3
ObjectDBX Classes
 90
        0
280
     0
281
     0
  0
CLASS
  1
ACDBPLACEHOLDER
  2
AcDbPlaceHolder
  3
ObjectDBX Classes
 90
        0
280
     0
281
     0
  0
CLASS
  1
LAYOUT
  2
AcDbLayout
  3
ObjectDBX Classes
 90
        0
280
     0
281
     0
  0
CLASS
  1
DICTIONARYVAR
  2
AcDbDictionaryVar
  3
ObjectDBX Classes
 90
        0
280
     0
281
     0
  0
CLASS
  1
DIMASSOC
  2
AcDbDimAssoc
  3
"AcDbDimAssoc|Product Desc:     AcDim ARX App For Dimension|Company:          Autodesk, Inc.|WEB Address:      www.autodesk.com"
 90
    32768
280
     0
281
     0
  0
CLASS
  1
TABLESTYLE
  2
AcDbTableStyle
  3
ObjectDBX Classes
 90
     2047
280
     0
281
     0
  0
ENDSEC
  0
SECTION
  2
TABLES
  0
TABLE
  2
VPORT
  5
8
330
0
100
AcDbSymbolTable
 70
     2
  0
VPORT
  5
F67
330
8
100
AcDbSymbolTableRecord
100
AcDbViewportTableRecord
  2
*Active
 70
     0
 10
0.0
 20
0.0
 11
1.0
 21
1.0
 12
88.74695298011072
 22
804.9185591695913
 13
0.0
 23
0.0
 14
10.0
 24
10.0
 15
10.0
 25
10.0
 16
0.0
 26
0.0
 36
1.0
 17
0.0
 27
0.0
 37
0.0
 40
1.315790292066836
 41
1.593939393939393
 42
50.0
 43
0.0
 44
0.0
 50
0.0
 51
0.0
 71
     0
 72
   100
 73
     1
 74
     2
 75
     0
 76
     0
 77
     0
 78
     0
281
     0
 65
     1
110
0.0
120
0.0
130
0.0
111
1.0
121
0.0
131
0.0
112
0.0
122
1.0
132
0.0
 79
     0
146
0.0
  0
ENDTAB
  0
TABLE
  2
LTYPE
  5
5
330
0
100
AcDbSymbolTable
 70
     3
  0
LTYPE
  5
14
330
5
100
AcDbSymbolTableRecord
100
AcDbLinetypeTableRecord
  2
ByBlock
 70
     0
  3

 72
    65
 73
     0
 40
0.0
  0
LTYPE
  5
15
330
5
100
AcDbSymbolTableRecord
100
AcDbLinetypeTableRecord
  2
ByLayer
 70
     0
  3

 72
    65
 73
     0
 40
0.0
  0
LTYPE
  5
16
330
5
100
AcDbSymbolTableRecord
100
AcDbLinetypeTableRecord
  2
Continuous
 70
     0
  3
Solid line
 72
    65
 73
     0
 40
0.0
  0
LTYPE
  5
2D
330
5
100
AcDbSymbolTableRecord
100
AcDbLinetypeTableRecord
  2
DASHDOT
 70
     0
  3
Dash dot __ . __ . __ . __ . __ . __ . __ . __
 72
    65
 73
     4
 40
25.4
 49
12.7
 74
     0
 49
-6.349999999999999
 74
     0
 49
0.0
 74
     0
 49
-6.349999999999999
 74
     0
  0
LTYPE
  5
2E
330
5
100
AcDbSymbolTableRecord
100
AcDbLinetypeTableRecord
  2
HIDDEN
 70
     0
  3
Hidden __ __ __ __ __ __ __ __ __ __ __ __ __ _
 72
    65
 73
     2
 40
9.524999999999998
 49
6.349999999999999
 74
     0
 49
-3.174999999999999
 74
     0
  0
ENDTAB
  0
TABLE
  2
LAYER
  5
2
330
0
100
AcDbSymbolTable
 70
    16
  0
LAYER
  5
10
330
2
100
AcDbSymbolTableRecord
100
AcDbLayerTableRecord
  2
0
 70
     0
 62
     7
  6
Continuous
370
    -3
390
F
  0
LAYER
  5
2F
330
2
100
AcDbSymbolTableRecord
100
AcDbLayerTableRecord
  2
1
 70
     0
 62
     1
  6
Continuous
370
    -3
390
F
  0
LAYER
  5
30
330
2
100
AcDbSymbolTableRecord
100
AcDbLayerTableRecord
  2
2
 70
     0
 62
     2
  6
Continuous
370
    -3
390
F
  0
LAYER
  5
31
330
2
100
AcDbSymbolTableRecord
100
AcDbLayerTableRecord
  2
3
 70
     0
 62
     3
  6
Continuous
370
    -3
390
F
  0
LAYER
  5
32
330
2
100
AcDbSymbolTableRecord
100
AcDbLayerTableRecord
  2
4
 70
     0
 62
     4
  6
Continuous
370
    -3
390
F
  0
LAYER
  5
33
330
2
100
AcDbSymbolTableRecord
100
AcDbLayerTableRecord
  2
5
 70
     0
 62
     5
  6
Continuous
370
    -3
390
F
  0
LAYER
  5
34
330
2
100
AcDbSymbolTableRecord
100
AcDbLayerTableRecord
  2
6
 70
     0
 62
     6
  6
Continuous
370
    -3
390
F
  0
LAYER
  5
35
330
2
100
AcDbSymbolTableRecord
100
AcDbLayerTableRecord
  2
7
 70
     0
 62
     7
  6
Continuous
370
    -3
390
F
  0
LAYER
  5
36
330
2
100
AcDbSymbolTableRecord
100
AcDbLayerTableRecord
  2
cen
 70
     0
 62
     7
  6
DASHDOT
370
    -3
390
F
  0
LAYER
  5
37
330
2
100
AcDbSymbolTableRecord
100
AcDbLayerTableRecord
  2
hid
 70
     0
 62
     7
  6
HIDDEN
370
    -3
390
F
  0
LAYER
  5
5D6
330
2
100
AcDbSymbolTableRecord
100
AcDbLayerTableRecord
  2
hatch
 70
     0
 62
     9
  6
Continuous
370
    -3
390
F
  0
LAYER
  5
8AF
330
2
100
AcDbSymbolTableRecord
100
AcDbLayerTableRecord
  2
9
 70
     0
 62
     9
  6
Continuous
370
    -3
390
F
  0
LAYER
  5
8F8
330
2
100
AcDbSymbolTableRecord
100
AcDbLayerTableRecord
  2
leg fin
 70
     0
 62
     9
  6
Continuous
370
    -3
390
F
  0
LAYER
  5
91D
330
2
100
AcDbSymbolTableRecord
100
AcDbLayerTableRecord
  2
cotas
 70
     0
 62
     1
  6
Continuous
370
    -3
390
F
  0
LAYER
  5
92F
330
2
100
AcDbSymbolTableRecord
100
AcDbLayerTableRecord
  2
Defpoints
 70
     0
 62
     7
  6
Continuous
290
     0
370
    -3
390
F
  0
LAYER
  5
BA5
330
2
100
AcDbSymbolTableRecord
100
AcDbLayerTableRecord
  2
SANINDUSA
 70
     0
 62
     3
  6
Continuous
370
    -3
390
F
  0
ENDTAB
  0
TABLE
  2
STYLE
  5
3
330
0
100
AcDbSymbolTable
 70
     3
  0
STYLE
  5
11
330
3
100
AcDbSymbolTableRecord
100
AcDbTextStyleTableRecord
  2
Standard
 70
     0
 40
0.0
 41
1.0
 50
0.0
 71
     0
 42
2.5
  3
Avgardn.ttf
  4

1001
ACAD
1000
AvantGarde Bk BT
1071
       34
  0
STYLE
  5
2C
330
3
100
AcDbSymbolTableRecord
100
AcDbTextStyleTableRecord
  2

 70
     1
 40
0.0
 41
1.0
 50
0.0
 71
     0
 42
2.5
  3
ltypeshp.shx
  4

  0
STYLE
  5
91F
330
3
100
AcDbSymbolTableRecord
100
AcDbTextStyleTableRecord
  2
SANINDUSA
 70
     0
 40
0.0
 41
1.0
 50
0.0
 71
     0
 42
2.5
  3
verdana.TTF
  4

1001
ACAD
1000
Verdana
1071
       34
  0
ENDTAB
  0
TABLE
  2
VIEW
  5
6
330
0
100
AcDbSymbolTable
 70
     0
  0
ENDTAB
  0
TABLE
  2
UCS
  5
7
330
0
100
AcDbSymbolTable
 70
     0
  0
ENDTAB
  0
TABLE
  2
APPID
  5
9
330
0
100
AcDbSymbolTable
 70
     2
  0
APPID
  5
12
330
9
100
AcDbSymbolTableRecord
100
AcDbRegAppTableRecord
  2
ACAD
 70
     0
  0
APPID
  5
3A
330
9
100
AcDbSymbolTableRecord
100
AcDbRegAppTableRecord
  2
DCO15
 70
     0
  0
ENDTAB
  0
TABLE
  2
DIMSTYLE
  5
A
330
0
100
AcDbSymbolTable
 70
     2
100
AcDbDimStyleTable
 71
     1
340
921
  0
DIMSTYLE
105
45
330
A
100
AcDbSymbolTableRecord
100
AcDbDimStyleTableRecord
  2
STANDARD
 70
     0
289
     0
340
11
  0
DIMSTYLE
105
921
330
A
100
AcDbSymbolTableRecord
100
AcDbDimStyleTableRecord
  2
SANINDUSA
 70
     0
 41
2.0
 42
1.0
 43
1.0
 44
1.0
 73
     0
 74
     0
 77
     1
 78
     8
140
2.0
141
0.0
143
0.03937007874016
147
1.0
171
     3
172
     1
176
   256
177
   256
178
   256
179
     1
271
     1
272
     1
274
     3
278
    44
283
     0
284
     8
340
91F
371
    -1
372
    -1
  0
ENDTAB
  0
TABLE
  2
BLOCK_RECORD
  5
1
330
0
100
AcDbSymbolTable
 70
    38
  0
BLOCK_RECORD
  5
1F
330
1
100
AcDbSymbolTableRecord
100
AcDbBlockTableRecord
  2
*Model_Space
340
22
  0
BLOCK_RECORD
  5
1B
330
1
100
AcDbSymbolTableRecord
100
AcDbBlockTableRecord
  2
*Paper_Space
340
1E
  0
BLOCK_RECORD
  5
23
330
1
100
AcDbSymbolTableRecord
100
AcDbBlockTableRecord
  2
*Paper_Space0
340
26
  0
BLOCK_RECORD
  5
919
330
1
100
AcDbSymbolTableRecord
100
AcDbBlockTableRecord
  2
_DotSmall
340
0
  0
BLOCK_RECORD
  5
922
330
1
100
AcDbSymbolTableRecord
100
AcDbBlockTableRecord
  2
base para cotas
340
0
310
2800000020000000200000000100080000000000000400000000000000000000000000000000000000000000000080000080000000808000800000008000800080800000C0C0C000C0DCC000F0CAA6000020400000206000002080000020A0000020C0000020E00000400000004020000040400000406000004080000040A0
310
000040C0000040E00000600000006020000060400000606000006080000060A0000060C0000060E00000800000008020000080400000806000008080000080A0000080C0000080E00000A0000000A0200000A0400000A0600000A0800000A0A00000A0C00000A0E00000C0000000C0200000C0400000C0600000C0800000C0
310
A00000C0C00000C0E00000E0000000E0200000E0400000E0600000E0800000E0A00000E0C00000E0E00040000000400020004000400040006000400080004000A0004000C0004000E00040200000402020004020400040206000402080004020A0004020C0004020E000404000004040200040404000404060004040800040
310
40A0004040C0004040E00040600000406020004060400040606000406080004060A0004060C0004060E00040800000408020004080400040806000408080004080A0004080C0004080E00040A0000040A0200040A0400040A0600040A0800040A0A00040A0C00040A0E00040C0000040C0200040C0400040C0600040C08000
310
40C0A00040C0C00040C0E00040E0000040E0200040E0400040E0600040E0800040E0A00040E0C00040E0E00080000000800020008000400080006000800080008000A0008000C0008000E00080200000802020008020400080206000802080008020A0008020C0008020E00080400000804020008040400080406000804080
310
008040A0008040C0008040E00080600000806020008060400080606000806080008060A0008060C0008060E00080800000808020008080400080806000808080008080A0008080C0008080E00080A0000080A0200080A0400080A0600080A0800080A0A00080A0C00080A0E00080C0000080C0200080C0400080C0600080C0
310
800080C0A00080C0C00080C0E00080E0000080E0200080E0400080E0600080E0800080E0A00080E0C00080E0E000C0000000C0002000C0004000C0006000C0008000C000A000C000C000C000E000C0200000C0202000C0204000C0206000C0208000C020A000C020C000C020E000C0400000C0402000C0404000C0406000C0
310
408000C040A000C040C000C040E000C0600000C0602000C0604000C0606000C0608000C060A000C060C000C060E000C0800000C0802000C0804000C0806000C0808000C080A000C080C000C080E000C0A00000C0A02000C0A04000C0A06000C0A08000C0A0A000C0A0C000C0A0E000C0C00000C0C02000C0C04000C0C06000
310
C0C08000C0C0A000F0FBFF00A4A0A000808080000000FF0000FF000000FFFF00FF000000FF00FF00FFFF0000FFFFFF00A4A4A4A4A4A4A4A4A4A4A4A4A4A4A4A4A4A4A4A4A4A4A4A4A4A4A4A4A4A4A4A4A4A4A4A4A4A4A4A4A4A4A4A4A4A4A4A4A4A4A4A4A4A4A4A4A4A4A4A4A4A4A4A4A4A4A4A4A4A4A4A4A4A4A4A4A4A4A4
310
A4A4A4A4A4A4A4A4A4A4A4A4A4A4A4A4A4A4A4A4A4A4A4A4A4A4A4A4A4A4A4A4A4A4A4A4A4A4A4A4A4A4A4A4A4A4A4A4A4A4A4A4A4A4A4A4A4A4A4A4A4A4A4A4A4A4A4A4A4A4A4A4A4A4A4A4A4A4A4A4A4A4A4A4A4A4A4A4A4A4A4A4A4A4A4A4A4A4A4A4A4A4A4A4A4A4A4A4A4A4A4A4A4A4A4A4A4A4A4A4A4A4A4A4A4A4A4
310
A4A4A4A4A4A4A4A4A4A4A4A4A4A4A4A4A4A4A4A4A4A4A4A4A4A4A4A4A4A4A4A4A4A4A4A4A4A4A4A4A4A4A4A4A4A4A4A4A4A4A4A4A4A4A4A4A4A4A4A4A4A4A4A4A4A4A4A4A4A4A4A4A4A4A4A4A4A4A4A4A4A4A4A4A4A4A4A4A4A4A4A4A4A4A4A4A4A4A4A4A4A4A4A4A4A4A4A4A4A4A4A4A4A4A4A4A4A4A4A4A4A4A4A4A4A4A4
310
A4A4A4A4A4A4A4A4A4A4A4A4A4A4A4A4A4A4A4A4A4A4A4A4A4A4A4A4A4A4A4A4A4A4A4A4A4A4A4A4A4A4A4A4A4A4A4A4A4A4A4A4A4A4A4A4A4A4A4A4A4A4A4A4A4A4A4A4A4A4A4A4A4A4A4A4A4A4A4A4A4A4A4A4A4A4A4A4A4A4A4A4A4A4A4A4A4A4A4A4A4A4A4A4A4A4A4A4A4A4A4A4A4A4A4A4F9F9F9F9F9F9F9F9F9F9F9
310
F9F9F9F9F9F9F9F9F9F9F9F9F9F9F9F9F9F9F9A4A4F9F9F9F9F9F9F9F9F9F9F9F9F9F9F9F9F9F9F9F9F9F9F9F9F9F9F9F9F9F9A4A4F9F9F9F9F9F9F9F9F9F9F9F9F9F9F9F9F9F9F9F9F9F9F9F9F9F9F9F9F9F9A4A4F9A4A4A4A4A4A4A4A4A4A4A4A4A4A4A4A4A4A4A4A4A4A4A4A4A4A4A4A4F9A4A4A4A4A4A4A4A4A4A4A4A4
310
A4A4A4A4A4A4A4A4A4A4A4A4A4A4A4A4A4A4A4A4A4A4A4A4A4A4A4A4A4A4A4A4A4A4A4A4A4A4A4A4A4A4A4A4A4A4A4A4A4A4A4A4A4A4A4A4A4A4A4A4A4A4A4A4A4A4A4A4A4A4A4A4A4A4A4A4A4A4A4A4A4A4A4A4A4A4A4A4A4A4A4A4A4A4A4A4A4A4A4A4A4A4A4A4A4A4A4A4A4A4A4A4A4A4A4A4A4A4A4A4A4A4A4A4A4A4A4
310
A4A4A4A4A4A4A4A4A4A4A4A4A4A4A4A4A4A4A4A4A4A4A4A4A4A4A4A4A4A4A4A4A4A4A4A4A4A4A4A4A4A4A4A4A4A4A4A4A4A4A4A4A4A4A4A4A4A4A4A4A4A4A4A4A4A4A4A4A4A4A4A4A4A4A4A4A4A4A4A4A4A4A4A4A4A4A4A4A4A4A4A4A4A4A4A4A4A4A4A4A4A4A4A4A4A4A4A4A4A4A4A4A4A4A4A4A4A4A4A4A4A4A4A4A4A4A4
310
A4A4A4A4A4A4A4A4A4A4A4A4A4A4A4A4A4A4A4A4A4A4A4A4A4A4A4A4A4A4A4A4A4A4A4A4A4A4A4A4A4A4A4A4A4A4A4A4A4A4A4A4A4A4A4A4A4A4A4A4A4A4A4A4A4A4A4A4A4A4A4A4A4A4A4A4A4A4A4A4A4A4A4A4A4A4A4A4A4A4A4A4A4A4A4A4A4A4A4A4A4A4A4A4A4A4A4A4A4A4A4A4A4A4A4A4A4A4A4A4A4A4A4A4A4A4A4
310
A4A4A4A4A4A4A4A4A4A4A4A4A4A4A4A4A4A4A4A4A4A4A4A4A4A4A4A4A4A4A4A4A4A4A4A4A4A4A4A4A4A4A4A4A4A4A4A4A4A4A4A4A4A4A4A4
1001
ACAD
1000
DesignCenter Data
1002
{
1070
     1
1070
     4
1002
}
  0
BLOCK_RECORD
  5
AA8
330
1
100
AcDbSymbolTableRecord
100
AcDbBlockTableRecord
  2
_CLOSED
340
0
  0
ENDTAB
  0
ENDSEC
  0
SECTION
  2
BLOCKS
  0
BLOCK
  5
20
330
1F
100
AcDbEntity
  8
0
100
AcDbBlockBegin
  2
*Model_Space
 70
     0
 10
0.0
 20
0.0
 30
0.0
  3
*Model_Space
  1

  0
ENDBLK
  5
21
330
1F
100
AcDbEntity
  8
0
100
AcDbBlockEnd
  0
BLOCK
  5
1C
330
1B
100
AcDbEntity
 67
     1
  8
0
100
AcDbBlockBegin
  2
*Paper_Space
 70
     0
 10
0.0
 20
0.0
 30
0.0
  3
*Paper_Space
  1

  0
ENDBLK
  5
1D
330
1B
100
AcDbEntity
 67
     1
  8
0
100
AcDbBlockEnd
  0
BLOCK
  5
24
330
23
100
AcDbEntity
 67
     1
  8
0
100
AcDbBlockBegin
  2
*Paper_Space0
 70
     0
 10
0.0
 20
0.0
 30
0.0
  3
*Paper_Space0
  1

  0
ENDBLK
  5
25
330
23
100
AcDbEntity
 67
     1
  8
0
100
AcDbBlockEnd
  0
BLOCK
  5
91B
330
919
100
AcDbEntity
  8
0
100
AcDbBlockBegin
  2
_DotSmall
 70
     0
 10
0.0
 20
0.0
 30
0.0
  3
_DotSmall
  1

  0
LWPOLYLINE
  5
91A
330
919
100
AcDbEntity
  8
0
  6
ByBlock
 62
     0
100
AcDbPolyline
 90
        2
 70
     1
 43
0.5
 10
-0.0625
 20
0.0
 42
1.0
 10
0.0625
 20
0.0
 42
1.0
  0
ENDBLK
  5
91C
330
919
100
AcDbEntity
  8
0
100
AcDbBlockEnd
  0
BLOCK
  5
92A
330
922
100
AcDbEntity
  8
0
100
AcDbBlockBegin
  2
base para cotas
 70
     0
 10
0.0
 20
0.0
 30
0.0
  3
base para cotas
  1

  0
LINE
  5
B36
330
922
100
AcDbEntity
  8
cotas
100
AcDbLine
 10
0.0
 20
-30.0
 30
0.0
 11
327.1260136525398
 21
-30.0
 31
0.0
  0
LINE
  5
B37
330
922
100
AcDbEntity
  8
cotas
100
AcDbLine
 10
0.0
 20
-25.0
 30
0.0
 11
327.1260136525398
 21
-25.0
 31
0.0
  0
LINE
  5
B38
330
922
100
AcDbEntity
  8
cotas
100
AcDbLine
 10
0.0
 20
-20.0
 30
0.0
 11
327.1260136525398
 21
-20.0
 31
0.0
  0
LINE
  5
B39
330
922
100
AcDbEntity
  8
cotas
100
AcDbLine
 10
0.0
 20
-15.0
 30
0.0
 11
327.1260136525398
 21
-15.0
 31
0.0
  0
LINE
  5
B3A
330
922
100
AcDbEntity
  8
cotas
100
AcDbLine
 10
0.0
 20
-10.0
 30
0.0
 11
327.1260136525398
 21
-10.0
 31
0.0
  0
LINE
  5
B3B
330
922
100
AcDbEntity
  8
cotas
100
AcDbLine
 10
0.0
 20
0.0
 30
0.0
 11
0.0
 21
-30.0
 31
0.0
  0
LINE
  5
B3C
330
922
100
AcDbEntity
  8
cotas
100
AcDbLine
 10
327.1260136525398
 20
-30.0
 30
0.0
 11
327.1260136525398
 21
0.0
 31
0.0
  0
ENDBLK
  5
92B
330
922
100
AcDbEntity
  8
0
100
AcDbBlockEnd
  0
BLOCK
  5
AAD
330
AA8
100
AcDbEntity
  8
0
100
AcDbBlockBegin
  2
_CLOSED
 70
     0
 10
0.0
 20
0.0
 30
0.0
  3
_CLOSED
  1

  0
LINE
  5
AA9
330
AA8
100
AcDbEntity
  8
0
100
AcDbLine
 10
-1.0
 20
0.166667
 30
0.0
 11
0.0
 21
0.0
 31
0.0
  0
LINE
  5
AAA
330
AA8
100
AcDbEntity
  8
0
100
AcDbLine
 10
0.0
 20
0.0
 30
0.0
 11
-1.0
 21
-0.166667
 31
0.0
  0
LINE
  5
AAB
330
AA8
100
AcDbEntity
  8
0
100
AcDbLine
 10
-1.0
 20
0.166667
 30
0.0
 11
-1.0
 21
-0.166667
 31
0.0
  0
LINE
  5
AAC
330
AA8
100
AcDbEntity
  8
0
100
AcDbLine
 10
0.0
 20
0.0
 30
0.0
 11
-1.0
 21
0.0
 31
0.0
  0
ENDBLK
  5
AAE
330
AA8
100
AcDbEntity
  8
0
100
AcDbBlockEnd
  0
ENDSEC
  0
SECTION
  2
ENTITIES
  0
CIRCLE
  5
D6E
330
1F
100
AcDbEntity
  8
SANINDUSA
100
AcDbCircle
 10
87.90974042337593
 20
804.9185591695913
 30
0.0
 40
0.1802326529477895
  0
CIRCLE
  5
D6F
330
1F
100
AcDbEntity
  8
SANINDUSA
100
AcDbCircle
 10
87.90974042337593
 20
804.9185591695913
 30
0.0
 40
0.2074999999999999
  0
CIRCLE
  5
D73
330
1F
100
AcDbEntity
  8
SANINDUSA
100
AcDbCircle
 10
87.90974042337593
 20
804.9185591695913
 30
0.0
 40
0.0405434374637741
  0
CIRCLE
  5
D75
330
1F
100
AcDbEntity
  8
SANINDUSA
100
AcDbCircle
 10
87.90974042337593
 20
804.9185591695913
 30
0.0
 40
0.0235
  0
LWPOLYLINE
  5
D77
330
1F
100
AcDbEntity
  8
SANINDUSA
100
AcDbPolyline
 90
       28
 70
   128
 43
0.0
 10
87.90778808604274
 20
805.0737889674989
 10
87.90403746918476
 20
805.0744908012914
 10
87.90091229365918
 20
805.0758244996117
 10
87.89875809867206
 20
805.077649103371
 10
87.89782781918505
 20
805.0797696949278
 10
87.89786921467966
 20
805.080868935228
 10
87.89825008678977
 20
805.0819486141479
 10
87.89896614299179
 20
805.0829791880278
 10
87.89999298791183
 20
805.0839303117504
 10
87.90130051554069
 20
805.0847699197245
 10
87.90285206299978
 20
805.0854792336062
 10
87.90459205077407
 20
805.0860313940654
 10
87.90648009712246
 20
805.0864185332399
 10
87.91045028196185
 20
805.0866528787354
 10
87.91286900456565
 20
805.0864383494161
 10
87.91649455119637
 20
805.0855298708889
 10
87.91935670156304
 20
805.0840288948686
 10
87.92115234533339
 20
805.08209311943
 10
87.9216684448898
 20
805.0799279466025
 10
87.92141303063841
 20
805.0788352436811
 10
87.92082254573964
 20
805.0777803433316
 10
87.91990916819331
 20
805.0767948831499
 10
87.91870205504102
 20
805.0759056189681
 10
87.91724019860424
 20
805.0751443647383
 10
87.9155618948889
 20
805.0745263458711
 10
87.91372824759218
 20
805.0740754492212
 10
87.9117803763755
 20
805.0737970557683
 10
87.90778808604274
 20
805.0737889674989
  0
ARC
  5
D7E
330
1F
100
AcDbEntity
  8
SANINDUSA
100
AcDbCircle
 10
89.00292880455602
 20
805.0341906557806
 30
0.0
 40
0.2
100
AcDbArc
 50
282.0058639450784
 51
338.5023851124597
  0
LINE
  5
D80
330
1F
100
AcDbEntity
  8
SANINDUSA
100
AcDbLine
 10
89.00111487603631
 20
804.9754323068162
 30
0.0
 11
89.19861487603631
 21
804.9754323068162
 31
0.0
  0
LINE
  5
D85
330
1F
100
AcDbEntity
  8
SANINDUSA
100
AcDbLine
 10
89.20661487603631
 20
804.9634323068161
 30
0.0
 11
88.79561487603631
 21
804.9634323068161
 31
0.0
  0
ARC
  5
D86
330
1F
100
AcDbEntity
  8
SANINDUSA
100
AcDbCircle
 10
88.9993009475166
 20
805.0341906557806
 30
0.0
 40
0.2
100
AcDbArc
 50
201.4976148875403
 51
257.994136054925
  0
LINE
  5
D8D
330
1F
100
AcDbEntity
  8
SANINDUSA
100
AcDbLine
 10
89.03613202646836
 20
804.8014148544096
 30
0.0
 11
89.03661280526643
 21
804.8289586533046
 31
0.0
  0
LINE
  5
D8E
330
1F
100
AcDbEntity
  8
SANINDUSA
100
AcDbLine
 10
88.96561694680618
 20
804.8289586533046
 30
0.0
 11
88.96609772560427
 21
804.8014148544096
 31
0.0
  0
LINE
  5
D90
330
1F
100
AcDbEntity
  8
SANINDUSA
100
AcDbLine
 10
89.03513217877319
 20
804.8004323068161
 30
0.0
 11
88.96709757329942
 21
804.8004323068161
 31
0.0
  0
ARC
  5
D91
330
1F
100
AcDbEntity
  8
SANINDUSA
100
AcDbCircle
 10
88.96709757329942
 20
804.8014323068162
 30
0.0
 40
0.0010000000000002
100
AcDbArc
 50
181.0000000000148
 51
270.0
  0
ARC
  5
D92
330
1F
100
AcDbEntity
  8
SANINDUSA
100
AcDbCircle
 10
89.03513217877319
 20
804.8014323068162
 30
0.0
 40
0.0010000000000002
100
AcDbArc
 50
270.0
 51
358.9999999999852
  0
LINE
  5
D93
330
1F
100
AcDbEntity
  8
SANINDUSA
100
AcDbLine
 10
88.95769858783854
 20
804.8385653924089
 30
0.0
 11
89.04453116423409
 21
804.8385653924089
 31
0.0
  0
ARC
  5
D95
330
1F
100
AcDbEntity
  8
SANINDUSA
100
AcDbCircle
 10
88.95561846985463
 20
804.8287841292403
 30
0.0
 40
0.0100000000000001
100
AcDbArc
 50
1.000000000079957
 51
77.99413605492159
  0
ARC
  5
D96
330
1F
100
AcDbEntity
  8
SANINDUSA
100
AcDbCircle
 10
89.046611282218
 20
804.8287841292403
 30
0.0
 40
0.0100000000000001
100
AcDbArc
 50
102.0058639450784
 51
178.99999999992
  0
LINE
  5
D98
330
1F
100
AcDbEntity
  8
SANINDUSA
100
AcDbLine
 10
88.8036148760363
 20
804.9754323068162
 30
0.0
 11
89.00111487603631
 21
804.9754323068162
 31
0.0
  0
ARC
  5
D9C
330
1F
100
AcDbEntity
  8
SANINDUSA
100
AcDbCircle
 10
88.80949265143838
 20
804.9594323068161
 30
0.0
 40
0.0039999999999999
100
AcDbArc
 50
21.49761488754653
 51
90.0
  0
ARC
  5
D9D
330
1F
100
AcDbEntity
  8
SANINDUSA
100
AcDbCircle
 10
88.79561487603631
 20
804.9654323068162
 30
0.0
 40
0.002
100
AcDbArc
 50
180.0
 51
270.0
  0
ARC
  5
D9E
330
1F
100
AcDbEntity
  8
SANINDUSA
100
AcDbCircle
 10
88.8036148760363
 20
804.9654323068162
 30
0.0
 40
0.01
100
AcDbArc
 50
90.0
 51
180.0
  0
ARC
  5
DA2
330
1F
100
AcDbEntity
  8
SANINDUSA
100
AcDbCircle
 10
89.19861487603631
 20
804.9654323068162
 30
0.0
 40
0.01
100
AcDbArc
 50
0.0
 51
90.0
  0
ARC
  5
DA3
330
1F
100
AcDbEntity
  8
SANINDUSA
100
AcDbCircle
 10
89.19273710063425
 20
804.9594323068161
 30
0.0
 40
0.004
100
AcDbArc
 50
90.0
 51
158.5023851124596
  0
ARC
  5
DA4
330
1F
100
AcDbEntity
  8
SANINDUSA
100
AcDbCircle
 10
89.20661487603631
 20
804.9654323068162
 30
0.0
 40
0.002
100
AcDbArc
 50
270.0
 51
0.0
  0
ARC
  5
DA5
330
1F
100
AcDbEntity
  8
SANINDUSA
100
AcDbCircle
 10
88.47142862854751
 20
805.0341906557806
 30
0.0
 40
0.2
100
AcDbArc
 50
282.005863945075
 51
338.5023851124597
  0
LINE
  5
DAB
330
1F
100
AcDbEntity
  8
SANINDUSA
100
AcDbLine
 10
88.2924902867799
 20
804.9053604126317
 30
0.0
 11
88.27529572875969
 21
804.9616012777558
 31
0.0
  0
LWPOLYLINE
  5
DAF
330
1F
100
AcDbEntity
  8
SANINDUSA
100
AcDbPolyline
 90
       16
 70
   128
 43
0.0
 10
88.43462176152399
 20
804.8385653924089
 10
88.42015667856788
 20
804.8415840509409
 10
88.40593375645656
 20
804.8456647257017
 10
88.39207053986539
 20
804.850778067402
 10
88.37989131588802
 20
804.8562891982181
 10
88.36807144201305
 20
804.862630833721
 10
88.35668798525254
 20
804.8697550885661
 10
88.3458180126186
 20
804.8776140774091
 10
88.33553859112328
 20
804.8861599149045
 10
88.32586975639165
 20
804.895388436812
 10
88.31681536801072
 20
804.9052824629663
 10
88.30843217662502
 20
804.915771066619
 10
88.30077693287908
 20
804.9267833210222
 10
88.29390638741744
 20
804.9382482994277
 10
88.28818346541334
 20
804.9494039171376
 10
88.28317522298581
 20
804.9608981567958
  0
ARC
  5
DB2
330
1F
100
AcDbEntity
  8
SANINDUSA
100
AcDbCircle
 10
88.47585109050493
 20
805.0187830380242
 30
0.0
 40
0.2159504205938937
100
AcDbArc
 50
212.6790742576839
 51
257.9602558482809
  0
LWPOLYLINE
  5
DB4
330
1F
100
AcDbEntity
  8
SANINDUSA
100
AcDbPolyline
 90
        9
 70
   128
 43
0.0
 10
88.29370178157979
 20
804.9027789983551
 10
88.29363066832689
 20
804.9028904523597
 10
88.29357591131882
 20
804.9029776030991
 10
88.29351761176889
 20
804.9030722481381
 10
88.29346686463276
 20
804.9031565290359
 10
88.29338851690115
 20
804.90329042596
 10
88.29316940826918
 20
804.9036926221573
 10
88.29277728782429
 20
804.9045503878634
 10
88.2924987203615
 20
804.9053616930153
  0
LWPOLYLINE
  5
DB5
330
1F
100
AcDbEntity
  8
SANINDUSA
100
AcDbPolyline
 90
        3
 70
   128
 43
0.0
 10
88.29370178157979
 20
804.9027789983551
 10
88.29384548432892
 20
804.9025567781892
 10
88.29408388653181
 20
804.9021842913994
  0
LINE
  5
DBD
330
1F
100
AcDbEntity
  8
SANINDUSA
100
AcDbLine
 10
88.44137490934366
 20
804.81795266097
 30
0.0
 11
88.44223500515019
 21
804.8289586533046
 31
0.0
  0
LINE
  5
DBE
330
1F
100
AcDbEntity
  8
SANINDUSA
100
AcDbLine
 10
88.50511262925792
 20
804.8289586533046
 30
0.0
 11
88.50463185045985
 21
804.8014148544096
 31
0.0
  0
LINE
  5
DC0
330
1F
100
AcDbEntity
  8
SANINDUSA
100
AcDbLine
 10
88.43559739729093
 20
804.8004323068161
 30
0.0
 11
88.50363200276381
 21
804.8004323068161
 31
0.0
  0
LWPOLYLINE
  5
DC1
330
1F
100
AcDbEntity
  8
SANINDUSA
100
AcDbPolyline
 90
       14
 70
   128
 43
0.0
 10
88.43459881293133
 20
804.8020268290779
 10
88.43453649716311
 20
804.8029299445317
 10
88.43421960595428
 20
804.8040582746077
 10
88.43373838166872
 20
804.805025280601
 10
88.4331491291466
 20
804.8058253497028
 10
88.43250413025009
 20
804.8064603297071
 10
88.43185406477591
 20
804.8069390039954
 10
88.43125521645056
 20
804.8072740358691
 10
88.4307875587387
 20
804.8074773758404
 10
88.43048663104443
 20
804.8075840185667
 10
88.43032935344723
 20
804.8076325769576
 10
88.43020997610684
 20
804.8076661492864
 10
88.43011483171071
 20
804.8076907405437
 10
88.43009155545612
 20
804.8076963753238
  0
LINE
  5
DC7
330
1F
100
AcDbEntity
  8
SANINDUSA
100
AcDbLine
 10
88.43459754959576
 20
804.8014148544096
 30
0.0
 11
88.43458684842072
 21
804.8020279243171
 31
0.0
  0
ARC
  5
DC9
330
1F
100
AcDbEntity
  8
SANINDUSA
100
AcDbCircle
 10
88.43559739729093
 20
804.8014323068162
 30
0.0
 40
0.0010000000000001
100
AcDbArc
 50
181.000000000145
 51
270.0
  0
LWPOLYLINE
  5
DCA
330
1F
100
AcDbEntity
  8
SANINDUSA
100
AcDbPolyline
 90
       10
 70
   128
 43
0.0
 10
88.43541267720901
 20
804.8018195432916
 10
88.43566737801596
 20
804.801806674645
 10
88.43635070763765
 20
804.8021145416731
 10
88.43715249076911
 20
804.8028576892381
 10
88.43805610955245
 20
804.8040478703939
 10
88.43896910781969
 20
804.8056101283096
 10
88.43950417046837
 20
804.8067310323128
 10
88.44069580590918
 20
804.8101941211958
 10
88.44137585088516
 20
804.8144314988439
 10
88.44137490934366
 20
804.8179526609702
  0
ARC
  5
DCB
330
1F
100
AcDbEntity
  8
SANINDUSA
100
AcDbCircle
 10
88.50363200276468
 20
804.8014323068162
 30
0.0
 40
0.0010000000000001
100
AcDbArc
 50
270.0
 51
358.9999999998549
  0
LINE
  5
DCC
330
1F
100
AcDbEntity
  8
SANINDUSA
100
AcDbLine
 10
88.5130309882256
 20
804.8385653924089
 30
0.0
 11
88.43462176152399
 21
804.8385653924089
 31
0.0
  0
LWPOLYLINE
  5
DD1
330
1F
100
AcDbEntity
  8
SANINDUSA
100
AcDbPolyline
 90
        7
 70
   128
 43
0.0
 10
88.44223500515019
 20
804.8289586533048
 10
88.44223233471739
 20
804.8297107023717
 10
88.44173439632513
 20
804.8323876576031
 10
88.44055555334231
 20
804.8347156078422
 10
88.43850867422185
 20
804.8368266544699
 10
88.43544049734253
 20
804.8383593512866
 10
88.43462176152399
 20
804.8385653924089
  0
ARC
  5
DD2
330
1F
100
AcDbEntity
  8
SANINDUSA
100
AcDbCircle
 10
88.51511110620949
 20
804.8287841292403
 30
0.0
 40
0.0100000000000001
100
AcDbArc
 50
102.005863945075
 51
178.9999999999721
  0
LINE
  5
DD5
330
1F
100
AcDbEntity
  8
SANINDUSA
100
AcDbLine
 10
88.2641147000278
 20
804.9634323068161
 30
0.0
 11
88.6751147000278
 21
804.9634323068161
 31
0.0
  0
LINE
  5
DD6
330
1F
100
AcDbEntity
  8
SANINDUSA
100
AcDbLine
 10
88.66711470002782
 20
804.9754323068162
 30
0.0
 11
88.27211470002941
 21
804.9754323068162
 31
0.0
  0
ARC
  5
DDD
330
1F
100
AcDbEntity
  8
SANINDUSA
100
AcDbCircle
 10
88.27211470002781
 20
804.9654323068162
 30
0.0
 40
0.01
100
AcDbArc
 50
90.0
 51
180.0
  0
ARC
  5
DDE
330
1F
100
AcDbEntity
  8
SANINDUSA
100
AcDbCircle
 10
88.2641147000278
 20
804.9654323068162
 30
0.0
 40
0.002
100
AcDbArc
 50
180.0
 51
270.0
  0
ARC
  5
DE5
330
1F
100
AcDbEntity
  8
SANINDUSA
100
AcDbCircle
 10
88.27147050973584
 20
804.960431790937
 30
0.0
 40
0.0040000000000001
100
AcDbArc
 50
17.00000000000203
 51
48.6015508853043
  0
LWPOLYLINE
  5
DE7
330
1F
100
AcDbEntity
  8
SANINDUSA
100
AcDbPolyline
 90
        9
 70
   128
 43
0.0
 10
88.27948242993212
 20
804.9634323068161
 10
88.28007337233463
 20
804.9633877198768
 10
88.28065114058063
 20
804.9632549530564
 10
88.28120285421123
 20
804.963036966188
 10
88.28171621361533
 20
804.962738618955
 10
88.28217977423063
 20
804.9623665625526
 10
88.28258320168265
 20
804.961929091409
 10
88.28291750217365
 20
804.961435958274
 10
88.28317522298581
 20
804.9608981567958
  0
ARC
  5
DEC
330
1F
100
AcDbEntity
  8
SANINDUSA
100
AcDbCircle
 10
88.6751147000278
 20
804.9654323068162
 30
0.0
 40
0.002
100
AcDbArc
 50
270.0
 51
0.0
  0
ARC
  5
DED
330
1F
100
AcDbEntity
  8
SANINDUSA
100
AcDbCircle
 10
88.66123692462574
 20
804.9594323068161
 30
0.0
 40
0.0039999999999999
100
AcDbArc
 50
90.0
 51
158.5023851124596
  0
ARC
  5
DEE
330
1F
100
AcDbEntity
  8
SANINDUSA
100
AcDbCircle
 10
88.66711470002782
 20
804.9654323068162
 30
0.0
 40
0.01
100
AcDbArc
 50
0.0
 51
90.0
  0
ARC
  5
DEF
330
1F
100
AcDbEntity
  8
SANINDUSA
100
AcDbCircle
 10
89.37564792038676
 20
804.9654323068162
 30
0.0
 40
0.01
100
AcDbArc
 50
20.10805682273062
 51
90.0
  0
LINE
  5
DF0
330
1F
100
AcDbEntity
  8
SANINDUSA
100
AcDbLine
 10
89.38143821425567
 20
804.9358976075705
 30
0.0
 11
89.3847729138495
 21
804.9369171275499
 31
0.0
  0
ARC
  5
DF1
330
1F
100
AcDbEntity
  8
SANINDUSA
100
AcDbCircle
 10
89.56345710399528
 20
805.0341906557806
 30
0.0
 40
0.2
100
AcDbArc
 50
201.7379884339288
 51
209.3852156962999
  0
LINE
  5
DF2
330
1F
100
AcDbEntity
  8
SANINDUSA
100
AcDbLine
 10
89.37767966066884
 20
804.9601181132894
 30
0.0
 11
89.3847729138495
 21
804.9369171275499
 31
0.0
  0
ARC
  5
DF3
330
1F
100
AcDbEntity
  8
SANINDUSA
100
AcDbCircle
 10
89.5715074229921
 20
805.0187830380242
 30
0.0
 40
0.2159504205938937
100
AcDbArc
 50
212.4475729926172
 51
257.7049816219331
  0
LINE
  5
DF4
330
1F
100
AcDbEntity
  8
SANINDUSA
100
AcDbLine
 10
89.37095206124686
 20
804.9616012777558
 30
0.0
 11
89.38814637129887
 21
804.9053612236992
 31
0.0
  0
ARC
  5
DF6
330
1F
100
AcDbEntity
  8
SANINDUSA
100
AcDbCircle
 10
89.56893211790472
 20
805.012696752674
 30
0.0
 40
0.20261311061763
100
AcDbArc
 50
202.2744359710669
 51
262.0524176209344
  0
LINE
  5
DF7
330
1F
100
AcDbEntity
  8
SANINDUSA
100
AcDbLine
 10
89.37564792038676
 20
804.9754323068162
 30
0.0
 11
89.7548941446432
 21
804.9754323068162
 31
0.0
  0
ARC
  5
DFE
330
1F
100
AcDbEntity
  8
SANINDUSA
100
AcDbCircle
 10
89.35977103251499
 20
804.9654323068162
 30
0.0
 40
0.002
100
AcDbArc
 50
180.0
 51
270.0
  0
ARC
  5
DFF
330
1F
100
AcDbEntity
  8
SANINDUSA
100
AcDbCircle
 10
89.36708164599975
 20
804.9584522259934
 30
0.0
 40
0.0059800808227499
100
AcDbArc
 50
88.69208438643758
 51
123.6148090284796
  0
ARC
  5
E00
330
1F
100
AcDbEntity
  8
SANINDUSA
100
AcDbCircle
 10
89.36712684222301
 20
804.960431790937
 30
0.0
 40
0.004
100
AcDbArc
 50
17.00000000000203
 51
88.69208416934199
  0
LINE
  5
E02
330
1F
100
AcDbEntity
  8
SANINDUSA
100
AcDbLine
 10
89.35977103251499
 20
804.9634323068161
 30
0.0
 11
89.363771032515
 21
804.9634323068161
 31
0.0
  0
ARC
  5
E03
330
1F
100
AcDbEntity
  8
SANINDUSA
100
AcDbCircle
 10
89.36777103251499
 20
804.9654323068162
 30
0.0
 40
0.01
100
AcDbArc
 50
90.0
 51
180.0
  0
LINE
  5
E04
330
1F
100
AcDbEntity
  8
SANINDUSA
100
AcDbLine
 10
89.37564792038676
 20
804.9754323068162
 30
0.0
 11
89.36777103251499
 21
804.9754323068162
 31
0.0
  0
ARC
  5
E06
330
1F
100
AcDbEntity
  8
SANINDUSA
100
AcDbCircle
 10
89.61076743869666
 20
804.8287841292403
 30
0.0
 40
0.0100000000000001
100
AcDbArc
 50
102.005863945075
 51
178.9999999999982
  0
ARC
  5
E0B
330
1F
100
AcDbEntity
  8
SANINDUSA
100
AcDbCircle
 10
89.5670849610347
 20
805.0341906557806
 30
0.0
 40
0.1899999999999999
100
AcDbArc
 50
281.7615741330625
 51
339.8919431772701
  0
LINE
  5
E10
330
1F
100
AcDbEntity
  8
SANINDUSA
100
AcDbLine
 10
89.40254689225049
 20
804.9169894364672
 30
0.0
 11
89.4086771646093
 21
804.9221576587841
 31
0.0
  0
LWPOLYLINE
  5
E11
330
1F
100
AcDbEntity
  8
SANINDUSA
100
AcDbPolyline
 90
       14
 70
   128
 43
0.0
 10
89.40238610251606
 20
804.9156320943753
 10
89.40217403451722
 20
804.9159591190218
 10
89.40127449591242
 20
804.917346699792
 10
89.3997642873758
 20
804.9196778096595
 10
89.39780304476874
 20
804.9227079896676
 10
89.3967160460073
 20
804.9243888317917
 10
89.39560336173391
 20
804.9261103990696
 10
89.39449083139356
 20
804.9278327723751
 10
89.39341508392454
 20
804.9294991636411
 10
89.39240751842682
 20
804.9310608178096
 10
89.39149595140868
 20
804.9324743960848
 10
89.39052278587292
 20
804.9339842581503
 10
89.38950770847657
 20
804.9355599786823
 10
89.3891890135241
 20
804.9360548690179
  0
ARC
  5
E13
330
1F
100
AcDbEntity
  8
SANINDUSA
100
AcDbCircle
 10
89.56345710399528
 20
805.0341906557806
 30
0.0
 40
0.19
100
AcDbArc
 50
216.1969755100437
 51
258.2384258669375
  0
ARC
  5
E17
330
1F
100
AcDbEntity
  8
SANINDUSA
100
AcDbCircle
 10
89.56345710399528
 20
805.0341906557806
 30
0.0
 40
0.2
100
AcDbArc
 50
216.3554457478639
 51
257.994136054925
  0
ARC
  5
E19
330
1F
100
AcDbEntity
  8
SANINDUSA
100
AcDbCircle
 10
89.40319145752345
 20
804.9162248871823
 30
0.0
 40
0.0009999999999998
100
AcDbArc
 50
130.13308895121
 51
216.3554457478802
  0
ARC
  5
E1A
330
1F
100
AcDbEntity
  8
SANINDUSA
100
AcDbCircle
 10
89.3977094188585
 20
804.9082849407465
 30
0.0
 40
0.01
100
AcDbArc
 50
197.000000000002
 51
212.447572992619
  0
ARC
  5
E1B
330
1F
100
AcDbEntity
  8
SANINDUSA
100
AcDbCircle
 10
89.59377103251499
 20
804.8331007685254
 30
0.0
 40
0.0050000000000001
100
AcDbArc
 50
130.0000000000001
 51
180.0
  0
ARC
  5
E1C
330
1F
100
AcDbEntity
  8
SANINDUSA
100
AcDbCircle
 10
89.53677103251498
 20
804.8331007685254
 30
0.0
 40
0.005
100
AcDbArc
 50
0.0
 51
49.99999999999991
  0
ARC
  5
E1E
330
1F
100
AcDbEntity
  8
SANINDUSA
100
AcDbCircle
 10
89.5197746263333
 20
804.8287841292403
 30
0.0
 40
0.01
100
AcDbArc
 50
1.000000000001775
 51
77.99413605492496
  0
LINE
  5
E24
330
1F
100
AcDbEntity
  8
SANINDUSA
100
AcDbLine
 10
89.58977103251498
 20
804.8004323068161
 30
0.0
 11
89.54077103251497
 21
804.8004323068161
 31
0.0
  0
LINE
  5
E2B
330
1F
100
AcDbEntity
  8
SANINDUSA
100
AcDbLine
 10
89.52980912112074
 20
804.826895192869
 30
0.0
 11
89.54060190443046
 21
804.8250431497161
 31
0.0
  0
LINE
  5
E2D
330
1F
100
AcDbEntity
  8
SANINDUSA
100
AcDbLine
 10
89.52977310328487
 20
804.8289586533046
 30
0.0
 11
89.52980912112074
 21
804.826895192869
 31
0.0
  0
ARC
  5
E31
330
1F
100
AcDbEntity
  8
SANINDUSA
100
AcDbCircle
 10
89.54077103251497
 20
804.8260287437964
 30
0.0
 40
0.001
100
AcDbArc
 50
260.2628720711014
 51
0.0
  0
LINE
  5
E36
330
1F
100
AcDbEntity
  8
SANINDUSA
100
AcDbLine
 10
89.54177103251499
 20
804.8260287437964
 30
0.0
 11
89.54177103251499
 21
804.8331007685254
 31
0.0
  0
LINE
  5
E38
330
1F
100
AcDbEntity
  8
SANINDUSA
100
AcDbLine
 10
89.5312537297781
 20
804.8004323068161
 30
0.0
 11
89.54077103251497
 21
804.8004323068161
 31
0.0
  0
ARC
  5
E39
330
1F
100
AcDbEntity
  8
SANINDUSA
100
AcDbCircle
 10
89.5312537297781
 20
804.8014323068162
 30
0.0
 40
0.0010000000000001
100
AcDbArc
 50
181.0000000006077
 51
270.0
  0
ARC
  5
E3A
330
1F
100
AcDbEntity
  8
SANINDUSA
100
AcDbCircle
 10
89.54077103251497
 20
804.8014323068162
 30
0.0
 40
0.0010000000000001
100
AcDbArc
 50
270.0
 51
0.0
  0
LINE
  5
E3B
330
1F
100
AcDbEntity
  8
SANINDUSA
100
AcDbLine
 10
89.53024318017833
 20
804.8020279661143
 30
0.0
 11
89.53025388208294
 21
804.8014148544096
 31
0.0
  0
LINE
  5
E3C
330
1F
100
AcDbEntity
  8
SANINDUSA
100
AcDbLine
 10
89.54177103251499
 20
804.8014323068162
 30
0.0
 11
89.54177103251499
 21
804.8110405141459
 31
0.0
  0
ARC
  5
E3D
330
1F
100
AcDbEntity
  8
SANINDUSA
100
AcDbCircle
 10
89.54077103251497
 20
804.8110405141459
 30
0.0
 40
0.0009999999999999
100
AcDbArc
 50
0.0
 51
81.58390192119716
  0
ARC
  5
E40
330
1F
100
AcDbEntity
  8
SANINDUSA
100
AcDbCircle
 10
89.52424409400739
 20
804.8019232516757
 30
0.0
 40
0.0060000000000002
100
AcDbArc
 50
1.000000000001775
 51
77.70498162193307
  0
LINE
  5
E41
330
1F
100
AcDbEntity
  8
SANINDUSA
100
AcDbLine
 10
89.58977103251498
 20
804.8004323068161
 30
0.0
 11
89.59928833525188
 21
804.8004323068161
 31
0.0
  0
ARC
  5
E42
330
1F
100
AcDbEntity
  8
SANINDUSA
100
AcDbCircle
 10
89.58977103251498
 20
804.8014323068162
 30
0.0
 40
0.0010000000000001
100
AcDbArc
 50
180.0
 51
270.0
  0
ARC
  5
E43
330
1F
100
AcDbEntity
  8
SANINDUSA
100
AcDbCircle
 10
89.59928833525188
 20
804.8014323068162
 30
0.0
 40
0.0010000000000001
100
AcDbArc
 50
270.0
 51
358.9999999993923
  0
LINE
  5
E44
330
1F
100
AcDbEntity
  8
SANINDUSA
100
AcDbLine
 10
89.60028818294702
 20
804.8014148544096
 30
0.0
 11
89.60076896174511
 21
804.8289586533046
 31
0.0
  0
LINE
  5
E45
330
1F
100
AcDbEntity
  8
SANINDUSA
100
AcDbLine
 10
89.58877103251499
 20
804.8331007685254
 30
0.0
 11
89.58877103251499
 21
804.8014323068162
 31
0.0
  0
LINE
  5
E48
330
1F
100
AcDbEntity
  8
SANINDUSA
100
AcDbLine
 10
89.52472759505122
 20
804.8481798358345
 30
0.0
 11
89.60581446997876
 21
804.8481798358345
 31
0.0
  0
LINE
  5
E49
330
1F
100
AcDbEntity
  8
SANINDUSA
100
AcDbLine
 10
89.53998497056343
 20
804.8369309907409
 30
0.0
 11
89.52911707594049
 21
804.8460502371106
 31
0.0
  0
ARC
  5
E4A
330
1F
100
AcDbEntity
  8
SANINDUSA
100
AcDbCircle
 10
89.52268919984362
 20
804.8383897926795
 30
0.0
 40
0.0100000000000001
100
AcDbArc
 50
49.99999999999991
 51
78.2384258669375
  0
LINE
  5
E4B
330
1F
100
AcDbEntity
  8
SANINDUSA
100
AcDbLine
 10
89.60142498908949
 20
804.8460502371106
 30
0.0
 11
89.59055709446657
 21
804.8369309907409
 31
0.0
  0
ARC
  5
E4C
330
1F
100
AcDbEntity
  8
SANINDUSA
100
AcDbCircle
 10
89.60785286518634
 20
804.8383897926795
 30
0.0
 40
0.0100000000000002
100
AcDbArc
 50
101.7615741330625
 51
130.0000000000001
  0
ARC
  5
E4D
330
1F
100
AcDbEntity
  8
SANINDUSA
100
AcDbCircle
 10
89.56345710399528
 20
805.0341906557806
 30
0.0
 40
0.1900000000000001
100
AcDbArc
 50
200.1080568227298
 51
208.9293382466034
  0
ARC
  5
E4E
330
1F
100
AcDbEntity
  8
SANINDUSA
100
AcDbCircle
 10
89.39629066693131
 20
804.9417981110632
 30
0.0
 40
0.0010000000000001
100
AcDbArc
 50
310.1330889512193
 51
28.92933824658955
  0
ARC
  5
E4F
330
1F
100
AcDbEntity
  8
SANINDUSA
100
AcDbCircle
 10
89.39006035397644
 20
804.9365455479517
 30
0.0
 40
0.001
100
AcDbArc
 50
209.3852156963083
 51
310.1330889512217
  0
LINE
  5
E50
330
1F
100
AcDbEntity
  8
SANINDUSA
100
AcDbLine
 10
89.39693523220425
 20
804.9410335617784
 30
0.0
 11
89.39070491924942
 21
804.9357809986668
 31
0.0
  0
ARC
  5
E51
330
1F
100
AcDbEntity
  8
SANINDUSA
100
AcDbCircle
 10
89.40932172988226
 20
804.9213931094993
 30
0.0
 40
0.001
100
AcDbArc
 50
36.19697551006003
 51
130.1330889512216
  0
LWPOLYLINE
  5
E52
330
1F
100
AcDbEntity
  8
SANINDUSA
100
AcDbPolyline
 90
       16
 70
   128
 43
0.0
 10
89.39716588387929
 20
804.9422818416639
 10
89.3971773233709
 20
804.942263858306
 10
89.39739185269013
 20
804.9419266322463
 10
89.39830033121738
 20
804.9404990470542
 10
89.39980130723768
 20
804.9381421251229
 10
89.40173708267638
 20
804.9351056138803
 10
89.40390225550386
 20
804.9317134886905
 10
89.40499495842528
 20
804.9300032833773
 10
89.4060498587747
 20
804.9283533127555
 10
89.40703531895636
 20
804.9268129309345
 10
89.40792458313818
 20
804.9254237067232
 10
89.40868583736786
 20
804.924235073752
 10
89.40930385623516
 20
804.923270501259
 10
89.40975475288505
 20
804.9225669965354
 10
89.41003314633784
 20
804.9221327402559
 10
89.41012872136976
 20
804.921983672569
  0
ARC
  5
E55
330
1F
100
AcDbEntity
  8
SANINDUSA
100
AcDbCircle
 10
89.5670849610347
 20
805.0341906557806
 30
0.0
 40
0.2
100
AcDbArc
 50
282.0058639450784
 51
338.5023851124597
  0
ARC
  5
E5C
330
1F
100
AcDbEntity
  8
SANINDUSA
100
AcDbCircle
 10
89.76277103251499
 20
804.9654323068162
 30
0.0
 40
0.0100000000000003
100
AcDbArc
 50
0.0
 51
90.0
  0
ARC
  5
E5D
330
1F
100
AcDbEntity
  8
SANINDUSA
100
AcDbCircle
 10
89.76346041903022
 20
804.9584522259934
 30
0.0
 40
0.00598008082275
100
AcDbArc
 50
56.38519097152038
 51
110.3769582096656
  0
ARC
  5
E5E
330
1F
100
AcDbEntity
  8
SANINDUSA
100
AcDbCircle
 10
89.77077103251499
 20
804.9654323068162
 30
0.0
 40
0.0020000000000002
100
AcDbArc
 50
270.0
 51
0.0
  0
ARC
  5
E5F
330
1F
100
AcDbEntity
  8
SANINDUSA
100
AcDbCircle
 10
89.75689325711291
 20
804.9594323068161
 30
0.0
 40
0.004
100
AcDbArc
 50
90.0
 51
158.5023851124596
  0
ARC
  5
E60
330
1F
100
AcDbEntity
  8
SANINDUSA
100
AcDbCircle
 10
89.75789623340737
 20
804.9734323068161
 30
0.0
 40
0.0100000000000013
100
AcDbArc
 50
270.0
 51
290.3769582096067
  0
LINE
  5
E61
330
1F
100
AcDbEntity
  8
SANINDUSA
100
AcDbLine
 10
89.76677103251498
 20
804.9634323068161
 30
0.0
 11
89.77077103251499
 21
804.9634323068161
 31
0.0
  0
LINE
  5
E62
330
1F
100
AcDbEntity
  8
SANINDUSA
100
AcDbLine
 10
89.75689325711291
 20
804.9634323068161
 30
0.0
 11
89.75789623340737
 21
804.9634323068161
 31
0.0
  0
ARC
  5
E64
330
1F
100
AcDbEntity
  8
SANINDUSA
100
AcDbCircle
 10
89.7548941446432
 20
804.9654323068162
 30
0.0
 40
0.0100000000000001
100
AcDbArc
 50
90.0
 51
159.8919431772701
  0
LINE
  5
E65
330
1F
100
AcDbEntity
  8
SANINDUSA
100
AcDbLine
 10
89.76277103251499
 20
804.9754323068162
 30
0.0
 11
89.7548941446432
 21
804.9754323068162
 31
0.0
  0
ENDSEC
  0
SECTION
  2
OBJECTS
  0
DICTIONARY
  5
C
330
0
100
AcDbDictionary
281
     1
  3
ACAD_COLOR
350
F5E
  3
ACAD_GROUP
350
D
  3
ACAD_LAYOUT
350
1A
  3
ACAD_MATERIAL
350
F5D
  3
ACAD_MLINESTYLE
350
17
  3
ACAD_PLOTSETTINGS
350
19
  3
ACAD_PLOTSTYLENAME
350
E
  3
ACAD_TABLESTYLE
350
F5F
  3
ACDBHEADERROUNDTRIPXREC
350
F68
  3
AcDbVariableDictionary
350
3D
  3
ASE_INDEX_DICTIONARY
350
F59
  0
DICTIONARY
  5
F5E
102
{ACAD_REACTORS
330
C
102
}
330
C
100
AcDbDictionary
281
     1
  0
DICTIONARY
  5
D
102
{ACAD_REACTORS
330
C
102
}
330
C
100
AcDbDictionary
281
     1
  0
DICTIONARY
  5
1A
102
{ACAD_REACTORS
330
C
102
}
330
C
100
AcDbDictionary
281
     1
  3
Layout1
350
1E
  3
Layout2
350
26
  3
Model
350
22
  0
DICTIONARY
  5
F5D
102
{ACAD_REACTORS
330
C
102
}
330
C
100
AcDbDictionary
281
     1
  0
DICTIONARY
  5
17
102
{ACAD_REACTORS
330
C
102
}
330
C
100
AcDbDictionary
281
     1
  3
Standard
350
18
  0
DICTIONARY
  5
19
102
{ACAD_REACTORS
330
C
102
}
330
C
100
AcDbDictionary
281
     1
  0
ACDBDICTIONARYWDFLT
  5
E
102
{ACAD_REACTORS
330
C
102
}
330
C
100
AcDbDictionary
281
     1
  3
Normal
350
F
100
AcDbDictionaryWithDefault
340
F
  0
DICTIONARY
  5
F5F
102
{ACAD_REACTORS
330
C
102
}
330
C
100
AcDbDictionary
281
     1
  3
Standard
350
F60
  0
DICTIONARY
  5
F68
102
{ACAD_REACTORS
330
C
102
}
330
C
100
AcDbDictionary
281
     1
  0
DICTIONARY
  5
3D
102
{ACAD_REACTORS
330
C
102
}
330
C
100
AcDbDictionary
281
     1
  3
CTABLESTYLE
350
F65
  3
DIMASSOC
350
3F
  3
HIDETEXT
350
3E
  3
PROJECTNAME
350
F66
  0
DICTIONARY
  5
F59
102
{ACAD_REACTORS
330
C
102
}
330
C
100
AcDbDictionary
281
     1
  3
ASEBlockHierarchyIndexRecord
350
F5A
1001
DCO15
1040
1529153926.765
  0
LAYOUT
  5
1E
102
{ACAD_XDICTIONARY
360
F69
102
}
102
{ACAD_REACTORS
330
1A
102
}
330
1A
100
AcDbPlotSettings
  1

  2
Ploter HP500
  4

  6

 40
0.0
 41
0.0
 42
0.0
 43
0.0
 44
0.0
 45
0.0
 46
0.0
 47
0.0
 48
0.0
 49
0.0
140
0.0
141
0.0
142
1.0
143
1.0
 70
   688
 72
     0
 73
     0
 74
     5
  7
monochrome.ctb
 75
    16
147
1.0
148
0.0
149
0.0
100
AcDbLayout
  1
Layout1
 70
     1
 71
     1
 10
0.0
 20
0.0
 11
420.0
 21
297.0
 12
0.0
 22
0.0
 32
0.0
 14
1.000000000000000E+20
 24
1.000000000000000E+20
 34
1.000000000000000E+20
 15
-1.000000000000000E+20
 25
-1.000000000000000E+20
 35
-1.000000000000000E+20
146
0.0
 13
0.0
 23
0.0
 33
0.0
 16
1.0
 26
0.0
 36
0.0
 17
0.0
 27
1.0
 37
0.0
 76
     0
330
1B
  0
LAYOUT
  5
26
102
{ACAD_XDICTIONARY
360
F6D
102
}
102
{ACAD_REACTORS
330
1A
102
}
330
1A
100
AcDbPlotSettings
  1

  2
Ploter HP500
  4

  6

 40
0.0
 41
0.0
 42
0.0
 43
0.0
 44
0.0
 45
0.0
 46
0.0
 47
0.0
 48
0.0
 49
0.0
140
0.0
141
0.0
142
1.0
143
1.0
 70
   688
 72
     0
 73
     0
 74
     5
  7
monochrome.ctb
 75
    16
147
1.0
148
0.0
149
0.0
100
AcDbLayout
  1
Layout2
 70
     1
 71
     2
 10
0.0
 20
0.0
 11
12.0
 21
9.0
 12
0.0
 22
0.0
 32
0.0
 14
0.0
 24
0.0
 34
0.0
 15
0.0
 25
0.0
 35
0.0
146
0.0
 13
0.0
 23
0.0
 33
0.0
 16
1.0
 26
0.0
 36
0.0
 17
0.0
 27
1.0
 37
0.0
 76
     0
330
23
  0
LAYOUT
  5
22
102
{ACAD_XDICTIONARY
360
F6B
102
}
102
{ACAD_REACTORS
330
1A
102
}
330
1A
100
AcDbPlotSettings
  1

  2
Ploter HP500
  4
User268
  6

 40
4.995333194732666
 41
16.97565841674804
 42
4.995330810546875
 43
16.97567749023437
 44
209.9733276367187
 45
296.9259948730469
 46
0.0
 47
0.0
 48
0.0
 49
0.0
140
0.0
141
0.0
142
1.0
143
1.0
 70
 11952
 72
     1
 73
     1
 74
     0
  7

 75
     0
147
1.0
148
-427.5957866592534
149
7.362384574453926
100
AcDbLayout
  1
Model
 70
     1
 71
     0
 10
0.0
 20
0.0
 11
12.0
 21
9.0
 12
0.0
 22
0.0
 32
0.0
 14
0.0
 24
0.0
 34
0.0
 15
0.0
 25
0.0
 35
0.0
146
0.0
 13
0.0
 23
0.0
 33
0.0
 16
1.0
 26
0.0
 36
0.0
 17
0.0
 27
1.0
 37
0.0
 76
     0
330
1F
  0
MLINESTYLE
  5
18
102
{ACAD_REACTORS
330
17
102
}
330
17
100
AcDbMlineStyle
  2
STANDARD
 70
     0
  3

 62
   256
 51
90.0
 52
90.0
 71
     2
 49
0.5
 62
   256
  6
BYLAYER
 49
-0.5
 62
   256
  6
BYLAYER
  0
ACDBPLACEHOLDER
  5
F
102
{ACAD_REACTORS
330
E
102
}
330
E
  0
TABLESTYLE
  5
F60
102
{ACAD_REACTORS
330
F5F
102
}
330
F5F
100
AcDbTableStyle
  3
Standard
 70
     0
 71
     0
 40
1.5
 41
1.5
280
     0
281
     0
  7
Standard
140
4.5
170
     2
 62
     0
 63
     7
283
     0
274
    -2
284
     1
 64
     0
275
    -2
285
     1
 65
     0
276
    -2
286
     1
 66
     0
277
    -2
287
     1
 67
     0
278
    -2
288
     1
 68
     0
279
    -2
289
     1
 69
     0
  7
Standard
140
6.0
170
     5
 62
     0
 63
     7
283
     0
274
    -2
284
     1
 64
     0
275
    -2
285
     1
 65
     0
276
    -2
286
     1
 66
     0
277
    -2
287
     1
 67
     0
278
    -2
288
     1
 68
     0
279
    -2
289
     1
 69
     0
  7
Standard
140
4.5
170
     5
 62
     0
 63
     7
283
     0
274
    -2
284
     1
 64
     0
275
    -2
285
     1
 65
     0
276
    -2
286
     1
 66
     0
277
    -2
287
     1
 67
     0
278
    -2
288
     1
 68
     0
279
    -2
289
     1
 69
     0
  0
DICTIONARYVAR
  5
F65
102
{ACAD_REACTORS
330
3D
102
}
330
3D
100
DictionaryVariables
280
     0
  1
STANDARD
  0
DICTIONARYVAR
  5
3F
102
{ACAD_REACTORS
330
3D
102
}
330
3D
100
DictionaryVariables
280
     0
  1
2
  0
DICTIONARYVAR
  5
3E
102
{ACAD_REACTORS
330
3D
102
}
330
3D
100
DictionaryVariables
280
     0
  1
1
  0
DICTIONARYVAR
  5
F66
102
{ACAD_REACTORS
330
3D
102
}
330
3D
100
DictionaryVariables
280
     0
  1

  0
XRECORD
  5
F5A
102
{ACAD_REACTORS
330
F59
102
}
330
F59
100
AcDbXrecord
280
     1
  0
DICTIONARY
  5
F69
330
1E
100
AcDbDictionary
280
     1
281
     1
  3
ACAD_XREC_ROUNDTRIP
360
F6A
  0
DICTIONARY
  5
F6D
330
26
100
AcDbDictionary
280
     1
281
     1
  3
ACAD_XREC_ROUNDTRIP
360
F6E
  0
DICTIONARY
  5
F6B
330
22
100
AcDbDictionary
280
     1
281
     1
  3
ACAD_XREC_ROUNDTRIP
360
F6C
  0
XRECORD
  5
F6A
102
{ACAD_REACTORS
330
F69
102
}
330
F69
100
AcDbXrecord
280
     1
102
SHADEPLOT
 70
     0
102
SHADEPLOTRESLEVEL
 70
     2
102
SHADEPLOTCUSTOMDPI
 70
   300
  0
XRECORD
  5
F6E
102
{ACAD_REACTORS
330
F6D
102
}
330
F6D
100
AcDbXrecord
280
     1
102
SHADEPLOT
 70
     0
102
SHADEPLOTRESLEVEL
 70
     2
102
SHADEPLOTCUSTOMDPI
 70
   300
  0
XRECORD
  5
F6C
102
{ACAD_REACTORS
330
F6B
102
}
330
F6B
100
AcDbXrecord
280
     1
102
SHADEPLOT
 70
     0
102
SHADEPLOTRESLEVEL
 70
     2
102
SHADEPLOTCUSTOMDPI
 70
   300
  0
ENDSEC
  0
EOF
